  0
SECTION
  2
HEADER
  9
$ACADVER
  1
AC1009
  9
$DWGCODEPAGE
  3
ansi_1252
  9
$INSBASE
 10
0.0
 20
0.0
 30
0.0
  9
$EXTMIN
 10
1.000000000000000E+20
 20
1.000000000000000E+20
 30
1.000000000000000E+20
  9
$EXTMAX
 10
-1.000000000000000E+20
 20
-1.000000000000000E+20
 30
-1.000000000000000E+20
  9
$LIMMIN
 10
0.0
 20
0.0
  9
$LIMMAX
 10
12.0
 20
9.0
  9
$ORTHOMODE
 70
     0
  9
$REGENMODE
 70
     1
  9
$FILLMODE
 70
     1
  9
$QTEXTMODE
 70
     0
  9
$MIRRTEXT
 70
     1
  9
$DRAGMODE
 70
     2
  9
$LTSCALE
 40
1.0
  9
$OSMODE
 70
    37
  9
$ATTMODE
 70
     1
  9
$TEXTSIZE
 40
0.2
  9
$TRACEWID
 40
0.05
  9
$TEXTSTYLE
  7
STANDARD
  9
$CLAYER
  8
DRAFT
  9
$CELTYPE
  6
BYLAYER
  9
$CECOLOR
 62
   256
  9
$DIMSCALE
 40
1.0
  9
$DIMASZ
 40
0.18
  9
$DIMEXO
 40
0.0625
  9
$DIMDLI
 40
0.38
  9
$DIMRND
 40
0.0
  9
$DIMDLE
 40
0.0
  9
$DIMEXE
 40
0.18
  9
$DIMTP
 40
0.0
  9
$DIMTM
 40
0.0
  9
$DIMTXT
 40
0.18
  9
$DIMCEN
 40
0.09
  9
$DIMTSZ
 40
0.0
  9
$DIMTOL
 70
     0
  9
$DIMLIM
 70
     0
  9
$DIMTIH
 70
     1
  9
$DIMTOH
 70
     1
  9
$DIMSE1
 70
     0
  9
$DIMSE2
 70
     0
  9
$DIMTAD
 70
     0
  9
$DIMZIN
 70
     0
  9
$DIMBLK
  1

  9
$DIMASO
 70
     1
  9
$DIMSHO
 70
     1
  9
$DIMPOST
  1

  9
$DIMAPOST
  1

  9
$DIMALT
 70
     0
  9
$DIMALTD
 70
     2
  9
$DIMALTF
 40
25.4
  9
$DIMLFAC
 40
1.0
  9
$DIMTOFL
 70
     0
  9
$DIMTVP
 40
0.0
  9
$DIMTIX
 70
     0
  9
$DIMSOXD
 70
     0
  9
$DIMSAH
 70
     0
  9
$DIMBLK1
  1

  9
$DIMBLK2
  1

  9
$DIMSTYLE
  2
STANDARD_ACAD
  9
$DIMCLRD
 70
     0
  9
$DIMCLRE
 70
     0
  9
$DIMCLRT
 70
     0
  9
$DIMTFAC
 40
1.0
  9
$DIMGAP
 40
0.09
  9
$LUNITS
 70
     2
  9
$LUPREC
 70
     3
  9
$SKETCHINC
 40
0.1
  9
$FILLETRAD
 40
0.5
  9
$AUNITS
 70
     0
  9
$AUPREC
 70
     0
  9
$MENU
  1
.
  9
$ELEVATION
 40
0.0
  9
$PELEVATION
 40
0.0
  9
$THICKNESS
 40
0.0
  9
$LIMCHECK
 70
     0
  9
$CHAMFERA
 40
0.0
  9
$CHAMFERB
 40
0.0
  9
$SKPOLY
 70
     0
  9
$TDCREATE
 40
2458939.858589491
  9
$TDUPDATE
 40
2458939.858606586
  9
$TDINDWG
 40
0.0000000116
  9
$TDUSRTIMER
 40
0.0000000116
  9
$USRTIMER
 70
     1
  9
$ANGBASE
 50
0.0
  9
$ANGDIR
 70
     0
  9
$PDMODE
 70
     0
  9
$PDSIZE
 40
0.0
  9
$PLINEWID
 40
0.0
  9
$COORDS
 70
     1
  9
$SPLFRAME
 70
     0
  9
$SPLINETYPE
 70
     6
  9
$SPLINESEGS
 70
     8
  9
$ATTDIA
 70
     0
  9
$ATTREQ
 70
     1
  9
$HANDLING
 70
     1
  9
$HANDSEED
  5
1C0
  9
$SURFTAB1
 70
     6
  9
$SURFTAB2
 70
     6
  9
$SURFTYPE
 70
     6
  9
$SURFU
 70
     6
  9
$SURFV
 70
     6
  9
$UCSNAME
  2

  9
$UCSORG
 10
0.0
 20
0.0
 30
0.0
  9
$UCSXDIR
 10
1.0
 20
0.0
 30
0.0
  9
$UCSYDIR
 10
0.0
 20
1.0
 30
0.0
  9
$PUCSNAME
  2

  9
$PUCSORG
 10
0.0
 20
0.0
 30
0.0
  9
$PUCSXDIR
 10
1.0
 20
0.0
 30
0.0
  9
$PUCSYDIR
 10
0.0
 20
1.0
 30
0.0
  9
$USERI1
 70
     0
  9
$USERI2
 70
     0
  9
$USERI3
 70
     0
  9
$USERI4
 70
     0
  9
$USERI5
 70
     0
  9
$USERR1
 40
0.0
  9
$USERR2
 40
0.0
  9
$USERR3
 40
0.0
  9
$USERR4
 40
0.0
  9
$USERR5
 40
0.0
  9
$WORLDVIEW
 70
     1
  9
$SHADEDGE
 70
     3
  9
$SHADEDIF
 70
    70
  9
$TILEMODE
 70
     1
  9
$MAXACTVP
 70
    64
  9
$PLIMCHECK
 70
     0
  9
$PEXTMIN
 10
1.000000000000000E+20
 20
1.000000000000000E+20
 30
1.000000000000000E+20
  9
$PEXTMAX
 10
-1.000000000000000E+20
 20
-1.000000000000000E+20
 30
-1.000000000000000E+20
  9
$PLIMMIN
 10
0.0
 20
0.0
  9
$PLIMMAX
 10
12.0
 20
9.0
  9
$UNITMODE
 70
     0
  9
$VISRETAIN
 70
     1
  9
$PLINEGEN
 70
     0
  9
$PSLTSCALE
 70
     1
  0
ENDSEC
  0
SECTION
  2
TABLES
  0
TABLE
  2
VPORT
 70
     1
  0
VPORT
  2
*ACTIVE
 70
     0
 10
0.0
 20
0.0
 11
1.0
 21
1.0
 12
10.42990654205607
 22
4.5
 13
0.0
 23
0.0
 14
0.5
 24
0.5
 15
0.5
 25
0.5
 16
0.0
 26
0.0
 36
1.0
 17
0.0
 27
0.0
 37
0.0
 40
9.0
 41
1.972972972850329
 42
50.0
 43
0.0
 44
0.0
 50
0.0
 51
0.0
 71
     0
 72
   100
 73
     1
 74
     3
 75
     0
 76
     0
 77
     0
 78
     0
  0
ENDTAB
  0
TABLE
  2
LTYPE
 70
     1
  0
LTYPE
  2
CONTINUOUS
 70
     0
  3
Solid line
 72
    65
 73
     0
 40
0.0
  0
ENDTAB
  0
TABLE
  2
LAYER
 70
     2
  0
LAYER
  2
0
 70
     0
 62
     7
  6
CONTINUOUS
  0
LAYER
  2
DRAFT
 70
     0
 62
    30
  6
CONTINUOUS
  0
ENDTAB
  0
TABLE
  2
STYLE
 70
     1
  0
STYLE
  2
STANDARD
 70
     0
 40
0.0
 41
1.0
 50
0.0
 71
     0
 42
0.2
  3
txt
  4

  0
ENDTAB
  0
TABLE
  2
VIEW
 70
     0
  0
ENDTAB
  0
TABLE
  2
UCS
 70
     0
  0
ENDTAB
  0
TABLE
  2
APPID
 70
     1
  0
APPID
  2
ACAD
 70
     0
  0
ENDTAB
  0
TABLE
  2
DIMSTYLE
 70
     1
  0
DIMSTYLE
  2
STANDARD_ACAD
 70
     0
  3

  4

  5

  6

  7

 40
1.0
 41
0.18
 42
0.0625
 43
0.38
 44
0.18
 45
0.0
 46
0.0
 47
0.0
 48
0.0
140
0.18
141
0.09
142
0.0
143
25.4
144
1.0
145
0.0
146
1.0
147
0.09
 71
     0
 72
     0
 73
     1
 74
     1
 75
     0
 76
     0
 77
     0
 78
     0
170
     0
171
     2
172
     0
173
     0
174
     0
175
     0
176
     0
177
     0
178
     0
  0
ENDTAB
  0
ENDSEC
  0
SECTION
  2
BLOCKS
  0
BLOCK
  8
0
  2
$MODEL_SPACE
 70
     0
 10
0.0
 20
0.0
 30
0.0
  3
$MODEL_SPACE
  1

  0
ENDBLK
  5
21
  8
0
  0
BLOCK
 67
     1
  8
0
  2
$PAPER_SPACE
 70
     0
 10
0.0
 20
0.0
 30
0.0
  3
$PAPER_SPACE
  1

  0
ENDBLK
  5
1D
 67
     1
  8
0
  0
ENDSEC
  0
SECTION
  2
ENTITIES
  0
POLYLINE
  5
6F
  8
DRAFT
 66
     1
 10
0.0
 20
0.0
 30
0.0
 70
     1
  0
VERTEX
  5
70
  8
DRAFT
 10
-668.0277323424426
 20
-419.4498387288951
 30
0.0
  0
VERTEX
  5
71
  8
DRAFT
 10
-668.0277323424426
 20
-419.5957540832256
 30
0.0
 42
0.414213562367326
  0
VERTEX
  5
72
  8
DRAFT
 10
-667.9964823424426
 20
-419.6270040832258
 30
0.0
  0
VERTEX
  5
73
  8
DRAFT
 10
-667.40937604323
 20
-419.6270040832256
 30
0.0
 42
0.4142135623771098
  0
VERTEX
  5
74
  8
DRAFT
 10
-667.3781260432302
 20
-419.5957540832256
 30
0.0
  0
VERTEX
  5
75
  8
DRAFT
 10
-667.37812604323
 20
-419.4498387288951
 30
0.0
 42
0.9999999999644728
  0
VERTEX
  5
76
  8
DRAFT
 10
-667.4181260432298
 20
-419.4498387288951
 30
0.0
  0
VERTEX
  5
77
  8
DRAFT
 10
-667.41812604323
 20
-419.5557540832259
 30
0.0
 42
-0.4142135623704691
  0
VERTEX
  5
78
  8
DRAFT
 10
-667.44937604323
 20
-419.5870040832255
 30
0.0
  0
VERTEX
  5
79
  8
DRAFT
 10
-667.9564823424427
 20
-419.5870040832255
 30
0.0
 42
-0.4142135623631285
  0
VERTEX
  5
7A
  8
DRAFT
 10
-667.9877323424427
 20
-419.5557540832255
 30
0.0
  0
VERTEX
  5
7B
  8
DRAFT
 10
-667.9877323424427
 20
-419.4498387288951
 30
0.0
 42
1.000000000005684
  0
SEQEND
  5
7C
  8
DRAFT
  0
POLYLINE
  5
7D
  8
DRAFT
 66
     1
 10
0.0
 20
0.0
 30
0.0
 70
     1
  0
VERTEX
  5
7E
  8
DRAFT
 10
-668.0277323424424
 20
-418.898657626533
 30
0.0
  0
VERTEX
  5
7F
  8
DRAFT
 10
-668.0277323424426
 20
-418.7527422722025
 30
0.0
 42
-0.4142135623688329
  0
VERTEX
  5
80
  8
DRAFT
 10
-667.9964823424427
 20
-418.7214922722026
 30
0.0
  0
VERTEX
  5
81
  8
DRAFT
 10
-667.40937604323
 20
-418.7214922722025
 30
0.0
 42
-0.4142135623740312
  0
VERTEX
  5
82
  8
DRAFT
 10
-667.3781260432299
 20
-418.7527422722025
 30
0.0
  0
VERTEX
  5
83
  8
DRAFT
 10
-667.37812604323
 20
-418.898657626533
 30
0.0
 42
-0.9999999999886312
  0
VERTEX
  5
84
  8
DRAFT
 10
-667.4181260432296
 20
-418.898657626533
 30
0.0
  0
VERTEX
  5
85
  8
DRAFT
 10
-667.41812604323
 20
-418.7927422722022
 30
0.0
 42
0.4142135623718466
  0
VERTEX
  5
86
  8
DRAFT
 10
-667.4493760432299
 20
-418.7614922722026
 30
0.0
  0
VERTEX
  5
87
  8
DRAFT
 10
-667.9564823424427
 20
-418.7614922722026
 30
0.0
 42
0.4142135623701459
  0
VERTEX
  5
88
  8
DRAFT
 10
-667.9877323424428
 20
-418.7927422722026
 30
0.0
  0
VERTEX
  5
89
  8
DRAFT
 10
-667.9877323424427
 20
-418.898657626533
 30
0.0
 42
-1.000000000014211
  0
SEQEND
  5
8A
  8
DRAFT
  0
POLYLINE
  5
8B
  8
DRAFT
 66
     1
 10
0.0
 20
0.0
 30
0.0
 70
     1
  0
VERTEX
  5
8C
  8
DRAFT
 10
-659.1041496652841
 20
-419.4498387288951
 30
0.0
  0
VERTEX
  5
8D
  8
DRAFT
 10
-659.1041496652841
 20
-419.5957540832256
 30
0.0
 42
-0.414213562367326
  0
VERTEX
  5
8E
  8
DRAFT
 10
-659.1353996652841
 20
-419.6270040832258
 30
0.0
  0
VERTEX
  5
8F
  8
DRAFT
 10
-659.7225059644967
 20
-419.6270040832256
 30
0.0
 42
-0.4142135623771098
  0
VERTEX
  5
90
  8
DRAFT
 10
-659.7537559644966
 20
-419.5957540832256
 30
0.0
  0
VERTEX
  5
91
  8
DRAFT
 10
-659.7537559644967
 20
-419.4498387288951
 30
0.0
 42
-0.9999999999644728
  0
VERTEX
  5
92
  8
DRAFT
 10
-659.713755964497
 20
-419.4498387288951
 30
0.0
  0
VERTEX
  5
93
  8
DRAFT
 10
-659.7137559644967
 20
-419.5557540832259
 30
0.0
 42
0.4142135623704691
  0
VERTEX
  5
94
  8
DRAFT
 10
-659.6825059644967
 20
-419.5870040832255
 30
0.0
  0
VERTEX
  5
95
  8
DRAFT
 10
-659.1753996652841
 20
-419.5870040832255
 30
0.0
 42
0.4142135623631285
  0
VERTEX
  5
96
  8
DRAFT
 10
-659.1441496652841
 20
-419.5557540832255
 30
0.0
  0
VERTEX
  5
97
  8
DRAFT
 10
-659.1441496652841
 20
-419.4498387288951
 30
0.0
 42
-1.000000000005684
  0
SEQEND
  5
98
  8
DRAFT
  0
POLYLINE
  5
99
  8
DRAFT
 66
     1
 10
0.0
 20
0.0
 30
0.0
 70
     1
  0
VERTEX
  5
9A
  8
DRAFT
 10
-659.1041496652844
 20
-418.898657626533
 30
0.0
  0
VERTEX
  5
9B
  8
DRAFT
 10
-659.1041496652841
 20
-418.7527422722025
 30
0.0
 42
0.4142135623688329
  0
VERTEX
  5
9C
  8
DRAFT
 10
-659.135399665284
 20
-418.7214922722026
 30
0.0
  0
VERTEX
  5
9D
  8
DRAFT
 10
-659.7225059644967
 20
-418.7214922722025
 30
0.0
 42
0.4142135623740312
  0
VERTEX
  5
9E
  8
DRAFT
 10
-659.7537559644968
 20
-418.7527422722025
 30
0.0
  0
VERTEX
  5
9F
  8
DRAFT
 10
-659.7537559644967
 20
-418.898657626533
 30
0.0
 42
0.9999999999886312
  0
VERTEX
  5
A0
  8
DRAFT
 10
-659.7137559644972
 20
-418.898657626533
 30
0.0
  0
VERTEX
  5
A1
  8
DRAFT
 10
-659.7137559644967
 20
-418.7927422722022
 30
0.0
 42
-0.4142135623718466
  0
VERTEX
  5
A2
  8
DRAFT
 10
-659.6825059644968
 20
-418.7614922722026
 30
0.0
  0
VERTEX
  5
A3
  8
DRAFT
 10
-659.1753996652841
 20
-418.7614922722026
 30
0.0
 42
-0.4142135623701459
  0
VERTEX
  5
A4
  8
DRAFT
 10
-659.144149665284
 20
-418.7927422722026
 30
0.0
  0
VERTEX
  5
A5
  8
DRAFT
 10
-659.1441496652841
 20
-418.898657626533
 30
0.0
 42
1.000000000014211
  0
SEQEND
  5
A6
  8
DRAFT
  0
POLYLINE
  5
A7
  8
DRAFT
 66
     1
 10
0.0
 20
0.0
 30
0.0
 70
     1
  0
VERTEX
  5
A8
  8
DRAFT
 10
-658.7829370253216
 20
-419.6084229778839
 30
0.0
 42
-0.1989123673788888
  0
VERTEX
  5
A9
  8
DRAFT
 10
-658.5619661562016
 20
-419.516893847005
 30
0.0
  0
VERTEX
  5
AA
  8
DRAFT
 10
-658.5431260432371
 20
-419.516893847005
 30
0.0
  0
VERTEX
  5
AB
  8
DRAFT
 10
-658.5431260432371
 20
-419.4695237682653
 30
0.0
  0
VERTEX
  5
AC
  8
DRAFT
 10
-658.5711646199554
 20
-419.4695237682652
 30
0.0
 42
0.198912367379844
  0
VERTEX
  5
AD
  8
DRAFT
 10
-658.7921354890766
 20
-419.5610528991442
 30
0.0
  0
VERTEX
  5
AE
  8
DRAFT
 10
-659.118719115295
 20
-419.8876365253617
 30
0.0
  0
VERTEX
  5
AF
  8
DRAFT
 10
-659.2071074629431
 20
-419.9242481777137
 30
0.0
  0
VERTEX
  5
B0
  8
DRAFT
 10
-667.9247745447836
 20
-419.9242481777136
 30
0.0
  0
VERTEX
  5
B1
  8
DRAFT
 10
-668.0131628924318
 20
-419.8876365253617
 30
0.0
  0
VERTEX
  5
B2
  8
DRAFT
 10
-668.3397465186501
 20
-419.5610528991442
 30
0.0
 42
0.1989123673799172
  0
VERTEX
  5
B3
  8
DRAFT
 10
-668.5607173877713
 20
-419.4695237682652
 30
0.0
  0
VERTEX
  5
B4
  8
DRAFT
 10
-668.5887559644897
 20
-419.4695237682653
 30
0.0
  0
VERTEX
  5
B5
  8
DRAFT
 10
-668.5887559644897
 20
-419.516893847005
 30
0.0
  0
VERTEX
  5
B6
  8
DRAFT
 10
-668.5699158515251
 20
-419.516893847005
 30
0.0
 42
-0.1989123673789641
  0
VERTEX
  5
B7
  8
DRAFT
 10
-668.3489449824051
 20
-419.6084229778839
 30
0.0
  0
VERTEX
  5
B8
  8
DRAFT
 10
-668.181321200195
 20
-419.7760467600935
 30
0.0
  0
VERTEX
  5
B9
  8
DRAFT
 10
-668.2034182871071
 20
-419.8293938470056
 30
0.0
  0
VERTEX
  5
BA
  8
DRAFT
 10
-668.5887559644846
 20
-419.829393847005
 30
0.0
 42
-0.3453056976009702
  0
VERTEX
  5
BB
  8
DRAFT
 10
-668.9152372568137
 20
-419.5733982487035
 30
0.0
 42
-0.1210102841102122
  0
VERTEX
  5
BC
  8
DRAFT
 10
-668.9152372568137
 20
-418.7750981067246
 30
0.0
 42
-0.345305697600544
  0
VERTEX
  5
BD
  8
DRAFT
 10
-668.5887559644846
 20
-418.5191025084233
 30
0.0
  0
VERTEX
  5
BE
  8
DRAFT
 10
-668.2034182871071
 20
-418.5191025084225
 30
0.0
  0
VERTEX
  5
BF
  8
DRAFT
 10
-668.181321200195
 20
-418.5724495953346
 30
0.0
  0
VERTEX
  5
C0
  8
DRAFT
 10
-668.3489449824051
 20
-418.7400733775442
 30
0.0
 42
-0.1989123673788888
  0
VERTEX
  5
C1
  8
DRAFT
 10
-668.5699158515251
 20
-418.8316025084231
 30
0.0
  0
VERTEX
  5
C2
  8
DRAFT
 10
-668.5887559644897
 20
-418.8316025084231
 30
0.0
  0
VERTEX
  5
C3
  8
DRAFT
 10
-668.5887559644897
 20
-418.8789725871628
 30
0.0
  0
VERTEX
  5
C4
  8
DRAFT
 10
-668.5607173877713
 20
-418.8789725871629
 30
0.0
 42
0.198912367379844
  0
VERTEX
  5
C5
  8
DRAFT
 10
-668.3397465186501
 20
-418.7874434562839
 30
0.0
  0
VERTEX
  5
C6
  8
DRAFT
 10
-668.0131628924318
 20
-418.4608598300664
 30
0.0
  0
VERTEX
  5
C7
  8
DRAFT
 10
-667.9247745447836
 20
-418.4242481777145
 30
0.0
  0
VERTEX
  5
C8
  8
DRAFT
 10
-659.2071074629431
 20
-418.4242481777145
 30
0.0
  0
VERTEX
  5
C9
  8
DRAFT
 10
-659.118719115295
 20
-418.4608598300664
 30
0.0
  0
VERTEX
  5
CA
  8
DRAFT
 10
-658.7921354890766
 20
-418.7874434562839
 30
0.0
 42
0.1989123673799172
  0
VERTEX
  5
CB
  8
DRAFT
 10
-658.5711646199554
 20
-418.8789725871629
 30
0.0
  0
VERTEX
  5
CC
  8
DRAFT
 10
-658.5431260432371
 20
-418.8789725871628
 30
0.0
  0
VERTEX
  5
CD
  8
DRAFT
 10
-658.5431260432371
 20
-418.8316025084231
 30
0.0
  0
VERTEX
  5
CE
  8
DRAFT
 10
-658.5619661562016
 20
-418.8316025084231
 30
0.0
 42
-0.1989123673789641
  0
VERTEX
  5
CF
  8
DRAFT
 10
-658.7829370253216
 20
-418.7400733775442
 30
0.0
  0
VERTEX
  5
D0
  8
DRAFT
 10
-658.9505608075317
 20
-418.5724495953346
 30
0.0
  0
VERTEX
  5
D1
  8
DRAFT
 10
-658.9284637206197
 20
-418.5191025084225
 30
0.0
  0
VERTEX
  5
D2
  8
DRAFT
 10
-658.5431260432422
 20
-418.5191025084231
 30
0.0
 42
-0.3453056976002312
  0
VERTEX
  5
D3
  8
DRAFT
 10
-658.216644750913
 20
-418.7750981067246
 30
0.0
 42
-0.1210102841101957
  0
VERTEX
  5
D4
  8
DRAFT
 10
-658.216644750913
 20
-419.5733982487035
 30
0.0
 42
-0.3453056976002074
  0
VERTEX
  5
D5
  8
DRAFT
 10
-658.5431260432422
 20
-419.829393847005
 30
0.0
  0
VERTEX
  5
D6
  8
DRAFT
 10
-658.9284637206197
 20
-419.8293938470056
 30
0.0
  0
VERTEX
  5
D7
  8
DRAFT
 10
-658.9505608075317
 20
-419.7760467600935
 30
0.0
  0
SEQEND
  5
D8
  8
DRAFT
  0
POLYLINE
  5
D9
  8
DRAFT
 66
     1
 10
0.0
 20
0.0
 30
0.0
  0
VERTEX
  5
DA
  8
DRAFT
 10
-670.2842042569056
 20
-421.9166215926308
 30
0.0
 42
-0.3369511922797058
  0
VERTEX
  5
DB
  8
DRAFT
 10
-669.0023059088642
 20
-423.6028538336484
 30
0.0
  0
VERTEX
  5
DC
  8
DRAFT
 10
-669.0023059088644
 20
-428.0392976750938
 30
0.0
 42
0.3889014466557759
  0
VERTEX
  5
DD
  8
DRAFT
 10
-667.4046908681383
 20
-429.7826504288957
 30
0.0
  0
VERTEX
  5
DE
  8
DRAFT
 10
-665.6466406388043
 20
-429.9363200818183
 30
0.0
  0
VERTEX
  5
DF
  8
DRAFT
 10
-663.4639109356638
 20
-430.0315352269579
 30
0.0
  0
VERTEX
  5
E0
  8
DRAFT
 10
-661.2811812325226
 20
-429.9363200818183
 30
0.0
  0
VERTEX
  5
E1
  8
DRAFT
 10
-659.5231310031886
 20
-429.7826504288956
 30
0.0
 42
0.3889014466555261
  0
VERTEX
  5
E2
  8
DRAFT
 10
-657.9255159624627
 20
-428.0392976750938
 30
0.0
  0
VERTEX
  5
E3
  8
DRAFT
 10
-657.925515962463
 20
-423.6028538336484
 30
0.0
 42
-0.3369511922797084
  0
VERTEX
  5
E4
  8
DRAFT
 10
-656.6436176144215
 20
-421.9166215926308
 30
0.0
  0
SEQEND
  5
E5
  8
DRAFT
  0
POLYLINE
  5
E6
  8
DRAFT
 66
     1
 10
0.0
 20
0.0
 30
0.0
  0
VERTEX
  5
E7
  8
DRAFT
 10
-657.9255159624631
 20
-423.6028538336483
 30
0.0
 42
-0.3369513388470182
  0
VERTEX
  5
E8
  8
DRAFT
 10
-656.6436172111661
 20
-421.9166209846057
 30
0.0
  0
VERTEX
  5
E9
  8
DRAFT
 10
-656.5747116176193
 20
-421.8679479098071
 30
0.0
  0
VERTEX
  5
EA
  8
DRAFT
 10
-656.307135061605
 20
-421.4864048370061
 30
0.0
  0
VERTEX
  5
EB
  8
DRAFT
 10
-656.2614226673186
 20
-421.4600296259067
 30
0.0
  0
VERTEX
  5
EC
  8
DRAFT
 10
-656.2165573702133
 20
-421.4560963412479
 30
0.0
  0
VERTEX
  5
ED
  8
DRAFT
 10
-656.1802923255804
 20
-421.4403690852952
 30
0.0
  0
VERTEX
  5
EE
  8
DRAFT
 10
-656.1725366667997
 20
-421.4334151821427
 30
0.0
 42
-1.211694860345241
  0
VERTEX
  5
EF
  8
DRAFT
 10
-656.1094265023371
 20
-421.5386760866089
 30
0.0
  0
VERTEX
  5
F0
  8
DRAFT
 10
-656.1633775688431
 20
-421.5329480225984
 30
0.0
  0
VERTEX
  5
F1
  8
DRAFT
 10
-656.1725175672229
 20
-421.5273320999213
 30
0.0
  0
VERTEX
  5
F2
  8
DRAFT
 10
-656.2106952799007
 20
-421.518322140938
 30
0.0
  0
VERTEX
  5
F3
  8
DRAFT
 10
-656.2294916383611
 20
-421.5199699942488
 30
0.0
  0
VERTEX
  5
F4
  8
DRAFT
 10
-656.275840229583
 20
-421.5472699287363
 30
0.0
  0
VERTEX
  5
F5
  8
DRAFT
 10
-656.349866647432
 20
-421.6569651500466
 30
0.0
 42
0.6310043784631586
  0
VERTEX
  5
F6
  8
DRAFT
 10
-656.235368102521
 20
-421.8514128659973
 30
0.0
  0
VERTEX
  5
F7
  8
DRAFT
 10
-655.6509971513835
 20
-421.800333505612
 30
0.0
  0
VERTEX
  5
F8
  8
DRAFT
 10
-655.5595402802394
 20
-421.7475802749387
 30
0.0
  0
VERTEX
  5
F9
  8
DRAFT
 10
-655.3154131495803
 20
-421.3994730565722
 30
0.0
  0
VERTEX
  5
FA
  8
DRAFT
 10
-655.269700755294
 20
-421.3730978454728
 30
0.0
  0
VERTEX
  5
FB
  8
DRAFT
 10
-655.2248354581889
 20
-421.3691645608141
 30
0.0
  0
VERTEX
  5
FC
  8
DRAFT
 10
-655.1885704135559
 20
-421.3534373048614
 30
0.0
  0
VERTEX
  5
FD
  8
DRAFT
 10
-655.1808147547754
 20
-421.3464834017088
 30
0.0
 42
-1.211694860345352
  0
VERTEX
  5
FE
  8
DRAFT
 10
-655.1177045903127
 20
-421.4517443061752
 30
0.0
  0
VERTEX
  5
FF
  8
DRAFT
 10
-655.1716556568186
 20
-421.4460162421645
 30
0.0
  0
VERTEX
  5
100
  8
DRAFT
 10
-655.1807956551986
 20
-421.4404003194874
 30
0.0
  0
VERTEX
  5
101
  8
DRAFT
 10
-655.2189733678761
 20
-421.4313903605042
 30
0.0
  0
VERTEX
  5
102
  8
DRAFT
 10
-655.2377697263366
 20
-421.433038213815
 30
0.0
  0
VERTEX
  5
103
  8
DRAFT
 10
-655.2841183175583
 20
-421.4603381483025
 30
0.0
  0
VERTEX
  5
104
  8
DRAFT
 10
-655.3583213123973
 20
-421.5702950282551
 30
0.0
 42
0.6310043784645213
  0
VERTEX
  5
105
  8
DRAFT
 10
-655.2438227674862
 20
-421.7647427442057
 30
0.0
  0
VERTEX
  5
106
  8
DRAFT
 10
-654.9870628568443
 20
-421.7422995820626
 30
0.0
 42
0.4142489508369532
  0
VERTEX
  5
107
  8
DRAFT
 10
-654.6461451346358
 20
-421.3360249361086
 30
0.0
  0
VERTEX
  5
108
  8
DRAFT
 10
-654.7115730510726
 20
-420.5885411467043
 30
0.0
 42
0.4141732650305402
  0
VERTEX
  5
109
  8
DRAFT
 10
-655.117792350558
 20
-420.2476640651186
 30
0.0
  0
VERTEX
  5
10A
  8
DRAFT
 10
-655.3744775358734
 20
-420.2700963597922
 30
0.0
 42
0.6310947064838663
  0
VERTEX
  5
10B
  8
DRAFT
 10
-655.4534855638794
 20
-420.4814818767484
 30
0.0
  0
VERTEX
  5
10C
  8
DRAFT
 10
-655.36146259631
 20
-420.5767154117307
 30
0.0
  0
VERTEX
  5
10D
  8
DRAFT
 10
-655.3110759821457
 20
-420.5955480282319
 30
0.0
  0
VERTEX
  5
10E
  8
DRAFT
 10
-655.2922791734705
 20
-420.5939053184123
 30
0.0
  0
VERTEX
  5
10F
  8
DRAFT
 10
-655.2562473282039
 20
-420.5783997312632
 30
0.0
  0
VERTEX
  5
110
  8
DRAFT
 10
-655.2482219781574
 20
-420.571281310474
 30
0.0
  0
VERTEX
  5
111
  8
DRAFT
 10
-655.1960864754105
 20
-420.5562673953365
 30
0.0
 42
-1.211694860344797
  0
VERTEX
  5
112
  8
DRAFT
 10
-655.2399498852758
 20
-420.6708917912675
 30
0.0
  0
VERTEX
  5
113
  8
DRAFT
 10
-655.248795711767
 20
-420.665391030787
 30
0.0
  0
VERTEX
  5
114
  8
DRAFT
 10
-655.2872415882712
 20
-420.6562032877633
 30
0.0
  0
VERTEX
  5
115
  8
DRAFT
 10
-655.3321079599996
 20
-420.6601242953494
 30
0.0
  0
VERTEX
  5
116
  8
DRAFT
 10
-655.3817073989057
 20
-420.6420918132108
 30
0.0
  0
VERTEX
  5
117
  8
DRAFT
 10
-655.6825369743335
 20
-420.3417525427358
 30
0.0
  0
VERTEX
  5
118
  8
DRAFT
 10
-655.7817357567786
 20
-420.3056875701241
 30
0.0
  0
VERTEX
  5
119
  8
DRAFT
 10
-656.3662319483394
 20
-420.3567680046596
 30
0.0
 42
0.631094706483334
  0
VERTEX
  5
11A
  8
DRAFT
 10
-656.4452399763458
 20
-420.5681535216156
 30
0.0
  0
VERTEX
  5
11B
  8
DRAFT
 10
-656.3532063089934
 20
-420.663398129683
 30
0.0
  0
VERTEX
  5
11C
  8
DRAFT
 10
-656.3028196948292
 20
-420.6822307461842
 30
0.0
  0
VERTEX
  5
11D
  8
DRAFT
 10
-656.284022886154
 20
-420.6805880363646
 30
0.0
  0
VERTEX
  5
11E
  8
DRAFT
 10
-656.2479910408873
 20
-420.6650824492154
 30
0.0
  0
VERTEX
  5
11F
  8
DRAFT
 10
-656.239965690841
 20
-420.6579640284262
 30
0.0
  0
VERTEX
  5
120
  8
DRAFT
 10
-656.187830188094
 20
-420.6429501132887
 30
0.0
 42
-1.211694860346663
  0
VERTEX
  5
121
  8
DRAFT
 10
-656.2316935979595
 20
-420.7575745092198
 30
0.0
  0
VERTEX
  5
122
  8
DRAFT
 10
-656.2405394244507
 20
-420.7520737487392
 30
0.0
  0
VERTEX
  5
123
  8
DRAFT
 10
-656.2789853009546
 20
-420.7428860057156
 30
0.0
  0
VERTEX
  5
124
  8
DRAFT
 10
-656.323851672683
 20
-420.7468070133017
 30
0.0
  0
VERTEX
  5
125
  8
DRAFT
 10
-656.3734511115892
 20
-420.728774531163
 30
0.0
  0
VERTEX
  5
126
  8
DRAFT
 10
-656.6742927646434
 20
-420.4284241556545
 30
0.0
  0
VERTEX
  5
127
  8
DRAFT
 10
-656.7734914067619
 20
-420.3923593231408
 30
0.0
  0
VERTEX
  5
128
  8
DRAFT
 10
-659.0775564934165
 20
-420.5937257388891
 30
0.0
  0
VERTEX
  5
129
  8
DRAFT
 10
-661.2812457081408
 20
-420.786320081818
 30
0.0
  0
VERTEX
  5
12A
  8
DRAFT
 10
-663.4639109356634
 20
-420.8815366329671
 30
0.0
  0
VERTEX
  5
12B
  8
DRAFT
 10
-665.6465761631863
 20
-420.786320081818
 30
0.0
  0
VERTEX
  5
12C
  8
DRAFT
 10
-667.8502653779105
 20
-420.5937257388891
 30
0.0
  0
VERTEX
  5
12D
  8
DRAFT
 10
-670.1543304645652
 20
-420.3923593231408
 30
0.0
  0
VERTEX
  5
12E
  8
DRAFT
 10
-670.2535291066837
 20
-420.4284241556545
 30
0.0
  0
VERTEX
  5
12F
  8
DRAFT
 10
-670.5543707597378
 20
-420.728774531163
 30
0.0
  0
VERTEX
  5
130
  8
DRAFT
 10
-670.6039701986441
 20
-420.7468070133017
 30
0.0
  0
VERTEX
  5
131
  8
DRAFT
 10
-670.6488365703725
 20
-420.7428860057156
 30
0.0
  0
VERTEX
  5
132
  8
DRAFT
 10
-670.6872824468763
 20
-420.7520737487392
 30
0.0
  0
VERTEX
  5
133
  8
DRAFT
 10
-670.6961282733675
 20
-420.7575745092198
 30
0.0
 42
-1.211694860347299
  0
VERTEX
  5
134
  8
DRAFT
 10
-670.739991683233
 20
-420.6429501132887
 30
0.0
  0
VERTEX
  5
135
  8
DRAFT
 10
-670.687856180486
 20
-420.6579640284262
 30
0.0
  0
VERTEX
  5
136
  8
DRAFT
 10
-670.6798308304396
 20
-420.6650824492154
 30
0.0
  0
VERTEX
  5
137
  8
DRAFT
 10
-670.6437989851729
 20
-420.6805880363646
 30
0.0
  0
VERTEX
  5
138
  8
DRAFT
 10
-670.6250021764979
 20
-420.6822307461842
 30
0.0
  0
VERTEX
  5
139
  8
DRAFT
 10
-670.5746155623335
 20
-420.663398129683
 30
0.0
  0
VERTEX
  5
13A
  8
DRAFT
 10
-670.4825818949811
 20
-420.5681535216157
 30
0.0
 42
0.6310947064832705
  0
VERTEX
  5
13B
  8
DRAFT
 10
-670.5615899229875
 20
-420.3567680046596
 30
0.0
  0
VERTEX
  5
13C
  8
DRAFT
 10
-671.1460861145483
 20
-420.3056875701241
 30
0.0
  0
VERTEX
  5
13D
  8
DRAFT
 10
-671.2452848969936
 20
-420.3417525427358
 30
0.0
  0
VERTEX
  5
13E
  8
DRAFT
 10
-671.5461144724212
 20
-420.6420918132108
 30
0.0
  0
VERTEX
  5
13F
  8
DRAFT
 10
-671.5957139113275
 20
-420.6601242953494
 30
0.0
  0
VERTEX
  5
140
  8
DRAFT
 10
-671.6405802830559
 20
-420.6562032877633
 30
0.0
  0
VERTEX
  5
141
  8
DRAFT
 10
-671.67902615956
 20
-420.665391030787
 30
0.0
  0
VERTEX
  5
142
  8
DRAFT
 10
-671.6878719860512
 20
-420.6708917912675
 30
0.0
 42
-1.211694860350044
  0
VERTEX
  5
143
  8
DRAFT
 10
-671.7317353959165
 20
-420.5562673953365
 30
0.0
  0
VERTEX
  5
144
  8
DRAFT
 10
-671.6795998931696
 20
-420.571281310474
 30
0.0
  0
VERTEX
  5
145
  8
DRAFT
 10
-671.6715745431231
 20
-420.5783997312632
 30
0.0
  0
VERTEX
  5
146
  8
DRAFT
 10
-671.6355426978564
 20
-420.5939053184123
 30
0.0
  0
VERTEX
  5
147
  8
DRAFT
 10
-671.6167458891814
 20
-420.5955480282319
 30
0.0
  0
VERTEX
  5
148
  8
DRAFT
 10
-671.566359275017
 20
-420.5767154117307
 30
0.0
  0
VERTEX
  5
149
  8
DRAFT
 10
-671.4743363074474
 20
-420.4814818767484
 30
0.0
 42
0.6310947064835738
  0
VERTEX
  5
14A
  8
DRAFT
 10
-671.5533443354535
 20
-420.2700963597922
 30
0.0
  0
VERTEX
  5
14B
  8
DRAFT
 10
-671.810029520769
 20
-420.2476640651186
 30
0.0
 42
0.414173265031915
  0
VERTEX
  5
14C
  8
DRAFT
 10
-672.2162488202542
 20
-420.5885411467043
 30
0.0
  0
VERTEX
  5
14D
  8
DRAFT
 10
-672.2816767366912
 20
-421.3360249361086
 30
0.0
 42
0.4142489508368632
  0
VERTEX
  5
14E
  8
DRAFT
 10
-671.9407590144826
 20
-421.7422995820626
 30
0.0
  0
VERTEX
  5
14F
  8
DRAFT
 10
-671.6839991038408
 20
-421.7647427442058
 30
0.0
 42
0.6310043784639646
  0
VERTEX
  5
150
  8
DRAFT
 10
-671.5695005589298
 20
-421.5702950282551
 30
0.0
  0
VERTEX
  5
151
  8
DRAFT
 10
-671.6437035537688
 20
-421.4603381483025
 30
0.0
  0
VERTEX
  5
152
  8
DRAFT
 10
-671.6900521449905
 20
-421.433038213815
 30
0.0
  0
VERTEX
  5
153
  8
DRAFT
 10
-671.708848503451
 20
-421.4313903605042
 30
0.0
  0
VERTEX
  5
154
  8
DRAFT
 10
-671.7470262161285
 20
-421.4404003194874
 30
0.0
  0
VERTEX
  5
155
  8
DRAFT
 10
-671.7561662145084
 20
-421.4460162421645
 30
0.0
  0
VERTEX
  5
156
  8
DRAFT
 10
-671.8101172810144
 20
-421.4517443061752
 30
0.0
 42
-1.211694860347136
  0
VERTEX
  5
157
  8
DRAFT
 10
-671.7470071165517
 20
-421.3464834017088
 30
0.0
  0
VERTEX
  5
158
  8
DRAFT
 10
-671.7392514577712
 20
-421.3534373048614
 30
0.0
  0
VERTEX
  5
159
  8
DRAFT
 10
-671.7029864131382
 20
-421.3691645608141
 30
0.0
  0
VERTEX
  5
15A
  8
DRAFT
 10
-671.658121116033
 20
-421.3730978454728
 30
0.0
  0
VERTEX
  5
15B
  8
DRAFT
 10
-671.6124087217468
 20
-421.3994730565722
 30
0.0
  0
VERTEX
  5
15C
  8
DRAFT
 10
-671.3682815910877
 20
-421.7475802749387
 30
0.0
  0
VERTEX
  5
15D
  8
DRAFT
 10
-671.2768247199435
 20
-421.800333505612
 30
0.0
  0
VERTEX
  5
15E
  8
DRAFT
 10
-670.6924537688061
 20
-421.8514128659972
 30
0.0
 42
0.6310043784631761
  0
VERTEX
  5
15F
  8
DRAFT
 10
-670.5779552238951
 20
-421.6569651500466
 30
0.0
  0
VERTEX
  5
160
  8
DRAFT
 10
-670.6519816417443
 20
-421.5472699287363
 30
0.0
  0
VERTEX
  5
161
  8
DRAFT
 10
-670.698330232966
 20
-421.5199699942488
 30
0.0
  0
VERTEX
  5
162
  8
DRAFT
 10
-670.7171265914266
 20
-421.518322140938
 30
0.0
  0
VERTEX
  5
163
  8
DRAFT
 10
-670.7553043041042
 20
-421.5273320999213
 30
0.0
  0
VERTEX
  5
164
  8
DRAFT
 10
-670.7644443024843
 20
-421.5329480225984
 30
0.0
  0
VERTEX
  5
165
  8
DRAFT
 10
-670.81839536899
 20
-421.538676086609
 30
0.0
 42
-1.211694860348183
  0
VERTEX
  5
166
  8
DRAFT
 10
-670.7552852045275
 20
-421.4334151821428
 30
0.0
  0
VERTEX
  5
167
  8
DRAFT
 10
-670.7475295457467
 20
-421.4403690852952
 30
0.0
  0
VERTEX
  5
168
  8
DRAFT
 10
-670.7112645011138
 20
-421.4560963412479
 30
0.0
  0
VERTEX
  5
169
  8
DRAFT
 10
-670.6663992040086
 20
-421.4600296259067
 30
0.0
  0
VERTEX
  5
16A
  8
DRAFT
 10
-670.6206868097223
 20
-421.4864048370061
 30
0.0
  0
VERTEX
  5
16B
  8
DRAFT
 10
-670.3531102537078
 20
-421.8679479098071
 30
0.0
  0
VERTEX
  5
16C
  8
DRAFT
 10
-670.2842046601612
 20
-421.9166209846056
 30
0.0
 42
-0.336951338846933
  0
VERTEX
  5
16D
  8
DRAFT
 10
-669.002305908864
 20
-423.6028538336483
 30
0.0
  0
SEQEND
  5
16E
  8
DRAFT
  0
POLYLINE
  5
16F
  8
DRAFT
 66
     1
 10
0.0
 20
0.0
 30
0.0
 70
     1
  0
VERTEX
  5
170
  8
DRAFT
 10
-669.7376887299816
 20
-420.8983813953822
 30
0.0
 42
0.4142135623643125
  0
VERTEX
  5
171
  8
DRAFT
 10
-669.7660947788313
 20
-420.8645255038899
 30
0.0
  0
VERTEX
  5
172
  8
DRAFT
 10
-670.1835433733588
 20
-420.8279858596239
 30
0.0
 42
0.4142135623776902
  0
VERTEX
  5
173
  8
DRAFT
 10
-670.2173992648513
 20
-420.8563919084738
 30
0.0
  0
VERTEX
  5
174
  8
DRAFT
 10
-670.2648507242242
 20
-421.3985029613132
 30
0.0
 42
0.4142135623775625
  0
VERTEX
  5
175
  8
DRAFT
 10
-670.2364446753743
 20
-421.4323588528055
 30
0.0
  0
VERTEX
  5
176
  8
DRAFT
 10
-669.8189960808467
 20
-421.4688984970716
 30
0.0
 42
0.4142135623578362
  0
VERTEX
  5
177
  8
DRAFT
 10
-669.7851401893546
 20
-421.4404924482213
 30
0.0
  0
SEQEND
  5
178
  8
DRAFT
  0
POLYLINE
  5
179
  8
DRAFT
 66
     1
 10
0.0
 20
0.0
 30
0.0
  0
VERTEX
  5
17A
  8
DRAFT
 10
-668.6179678245043
 20
-421.5657941967783
 30
0.0
  0
VERTEX
  5
17B
  8
DRAFT
 10
-668.6334088443845
 20
-421.742285861617
 30
0.0
  0
VERTEX
  5
17C
  8
DRAFT
 10
-668.5692215193495
 20
-421.0086213792956
 30
0.0
 42
0.414213533085155
  0
VERTEX
  5
17D
  8
DRAFT
 10
-668.597628983591
 20
-420.9747666782918
 30
0.0
  0
VERTEX
  5
17E
  8
DRAFT
 10
-669.1236707664581
 20
-420.928743932741
 30
0.0
 42
0.4142135777843627
  0
VERTEX
  5
17F
  8
DRAFT
 10
-669.1575254707185
 20
-420.9571513983478
 30
0.0
  0
VERTEX
  5
180
  8
DRAFT
 10
-669.2217128308008
 20
-421.6908158808461
 30
0.0
 42
1.000000000002584
  0
VERTEX
  5
181
  8
DRAFT
 10
-669.1818650428767
 20
-421.6943021105559
 30
0.0
  0
VERTEX
  5
182
  8
DRAFT
 10
-669.1691476127074
 20
-421.5489415534192
 30
0.0
 42
-0.4142135183877348
  0
VERTEX
  5
183
  8
DRAFT
 10
-669.1352929104245
 20
-421.5205340924269
 30
0.0
  0
VERTEX
  5
184
  8
DRAFT
 10
-668.6889466950564
 20
-421.5595843486934
 30
0.0
 42
-0.4142135477733379
  0
VERTEX
  5
185
  8
DRAFT
 10
-668.6605392292532
 20
-421.5934390498338
 30
0.0
  0
VERTEX
  5
186
  8
DRAFT
 10
-668.6732566323084
 20
-421.738799631907
 30
0.0
 42
1.000000000005663
  0
VERTEX
  5
187
  8
DRAFT
 10
-668.6334088443847
 20
-421.7422858616169
 30
0.0
  0
SEQEND
  5
188
  8
DRAFT
  0
POLYLINE
  5
189
  8
DRAFT
 66
     1
 10
0.0
 20
0.0
 30
0.0
  0
VERTEX
  5
18A
  8
DRAFT
 10
-671.0764937769958
 20
-420.7123156451792
 30
0.0
  0
VERTEX
  5
18B
  8
DRAFT
 10
-671.1012811388064
 20
-420.7101494037361
 30
0.0
 42
0.1594425821293115
  0
VERTEX
  5
18C
  8
DRAFT
 10
-671.1769954722396
 20
-420.7278017095064
 30
0.0
  0
VERTEX
  5
18D
  8
DRAFT
 10
-671.3116275188696
 20
-420.8485242873318
 30
0.0
  0
VERTEX
  5
18E
  8
DRAFT
 10
-671.3854415503826
 20
-421.0376398789567
 30
0.0
  0
VERTEX
  5
18F
  8
DRAFT
 10
-671.3455506979434
 20
-421.2366924803855
 30
0.0
  0
VERTEX
  5
190
  8
DRAFT
 10
-671.2339002564797
 20
-421.3789384212682
 30
0.0
 42
0.1594425821289885
  0
VERTEX
  5
191
  8
DRAFT
 10
-671.1623956880906
 20
-421.4094566270759
 30
0.0
  0
VERTEX
  5
192
  8
DRAFT
 10
-671.1376083263187
 20
-421.4116228689627
 30
0.0
  0
SEQEND
  5
193
  8
DRAFT
  0
POLYLINE
  5
194
  8
DRAFT
 66
     1
 10
0.0
 20
0.0
 30
0.0
 70
     1
  0
VERTEX
  5
195
  8
DRAFT
 10
-657.1901331413454
 20
-420.8983813953822
 30
0.0
 42
-0.4142135623643125
  0
VERTEX
  5
196
  8
DRAFT
 10
-657.1617270924958
 20
-420.8645255038899
 30
0.0
  0
VERTEX
  5
197
  8
DRAFT
 10
-656.7442784979683
 20
-420.8279858596239
 30
0.0
 42
-0.4142135623776902
  0
VERTEX
  5
198
  8
DRAFT
 10
-656.7104226064757
 20
-420.8563919084738
 30
0.0
  0
VERTEX
  5
199
  8
DRAFT
 10
-656.6629711471029
 20
-421.3985029613132
 30
0.0
 42
-0.4142135623775625
  0
VERTEX
  5
19A
  8
DRAFT
 10
-656.6913771959528
 20
-421.4323588528055
 30
0.0
  0
VERTEX
  5
19B
  8
DRAFT
 10
-657.1088257904804
 20
-421.4688984970716
 30
0.0
 42
-0.4142135623578362
  0
VERTEX
  5
19C
  8
DRAFT
 10
-657.1426816819725
 20
-421.4404924482213
 30
0.0
  0
SEQEND
  5
19D
  8
DRAFT
  0
POLYLINE
  5
19E
  8
DRAFT
 66
     1
 10
0.0
 20
0.0
 30
0.0
  0
VERTEX
  5
19F
  8
DRAFT
 10
-658.3098540468228
 20
-421.5657941967783
 30
0.0
  0
VERTEX
  5
1A0
  8
DRAFT
 10
-658.2944130269426
 20
-421.742285861617
 30
0.0
  0
VERTEX
  5
1A1
  8
DRAFT
 10
-658.3586003519775
 20
-421.0086213792956
 30
0.0
 42
-0.414213533085155
  0
VERTEX
  5
1A2
  8
DRAFT
 10
-658.3301928877361
 20
-420.9747666782918
 30
0.0
  0
VERTEX
  5
1A3
  8
DRAFT
 10
-657.804151104869
 20
-420.928743932741
 30
0.0
 42
-0.4142135777843627
  0
VERTEX
  5
1A4
  8
DRAFT
 10
-657.7702964006086
 20
-420.9571513983478
 30
0.0
  0
VERTEX
  5
1A5
  8
DRAFT
 10
-657.7061090405263
 20
-421.6908158808461
 30
0.0
 42
-1.000000000002584
  0
VERTEX
  5
1A6
  8
DRAFT
 10
-657.7459568284504
 20
-421.6943021105559
 30
0.0
  0
VERTEX
  5
1A7
  8
DRAFT
 10
-657.7586742586196
 20
-421.5489415534192
 30
0.0
 42
0.4142135183877348
  0
VERTEX
  5
1A8
  8
DRAFT
 10
-657.7925289609026
 20
-421.5205340924269
 30
0.0
  0
VERTEX
  5
1A9
  8
DRAFT
 10
-658.2388751762707
 20
-421.5595843486934
 30
0.0
 42
0.4142135477733379
  0
VERTEX
  5
1AA
  8
DRAFT
 10
-658.2672826420738
 20
-421.5934390498338
 30
0.0
  0
VERTEX
  5
1AB
  8
DRAFT
 10
-658.2545652390187
 20
-421.738799631907
 30
0.0
 42
-1.000000000005663
  0
VERTEX
  5
1AC
  8
DRAFT
 10
-658.2944130269424
 20
-421.7422858616169
 30
0.0
  0
SEQEND
  5
1AD
  8
DRAFT
  0
POLYLINE
  5
1AE
  8
DRAFT
 66
     1
 10
0.0
 20
0.0
 30
0.0
  0
VERTEX
  5
1AF
  8
DRAFT
 10
-655.8513280943313
 20
-420.7123156451792
 30
0.0
  0
VERTEX
  5
1B0
  8
DRAFT
 10
-655.8265407325207
 20
-420.7101494037361
 30
0.0
 42
-0.1594425821293115
  0
VERTEX
  5
1B1
  8
DRAFT
 10
-655.7508263990875
 20
-420.7278017095064
 30
0.0
  0
VERTEX
  5
1B2
  8
DRAFT
 10
-655.6161943524575
 20
-420.8485242873318
 30
0.0
  0
VERTEX
  5
1B3
  8
DRAFT
 10
-655.5423803209445
 20
-421.0376398789567
 30
0.0
  0
VERTEX
  5
1B4
  8
DRAFT
 10
-655.5822711733837
 20
-421.2366924803855
 30
0.0
  0
VERTEX
  5
1B5
  8
DRAFT
 10
-655.6939216148475
 20
-421.3789384212681
 30
0.0
 42
-0.1594425821294049
  0
VERTEX
  5
1B6
  8
DRAFT
 10
-655.7654261832365
 20
-421.4094566270759
 30
0.0
  0
VERTEX
  5
1B7
  8
DRAFT
 10
-655.7902135450083
 20
-421.4116228689627
 30
0.0
  0
SEQEND
  5
1B8
  8
DRAFT
  0
ENDSEC
  0
EOF
